筷子兄弟是一个中国内地歌唱组合,由王太利和王太华两兄弟组成。他们的歌曲《父亲》和《小苹果》走红后,深受大众的喜爱。作为乐器爱好者,有很多吉他手希望能够弹奏筷子兄弟的歌曲,特别是《最长的电影》。在本文中,我将为大家介绍一款简单易懂的《最长的电影》吉他谱(C调)。

筷子兄弟吉他谱(最长的电影吉他谱C调)

我们来了解一下什么是吉他谱。吉他谱是一种用符号和数字表示音符和和弦的记谱法。在吉他谱上,每个音符都标有一个数字,表示在吉他的某个品上按下的位置。而和弦则用字母或者常见的和弦符号表示。通过吉他谱,吉他手们可以很方便地弹奏自己喜爱的歌曲。

我们来学习一下《最长的电影》的吉他谱(C调)。C调是一种常用的吉他调弦,也是入门级吉他手最常使用的调弦方式之一。C调的吉他谱相对简单,只需使用C、D、E、F、G、A、B七个音符。

1. 前奏部分:

e|----0-3-5--3-0--------------------------

B|--1-----------1------------------------

G|-----------------------------------------

D|-----------------------------------------

A|-----------------------------------------

E|-----------------------------------------

这是《最长的电影》的前奏部分,很容易上手。你只需要按照吉他谱上的数字在相应的弦上按下对应的品位即可。

2. 主歌部分:

e|-------------------------------------------

B|-------------------------------------------

G|--5-5-4-2-0--5-5-4-2-4-2-0----------------

D|-------------------------------------------

A|-------------------------------------------

E|-------------------------------------------

这是《最长的电影》的主歌部分。同样地,按照吉他谱上的数字在吉他的相应位置上按下对应的弦。

3. 副歌部分:

e|------------------------------------------------

B|------------------------------------------------

G|--4-4-5-5-4-2-0--4-4-5-5-4-4-2-0----------------

D|------------------------------------------------

A|------------------------------------------------

E|------------------------------------------------

随后是《最长的电影》的副歌部分。和前面的部分一样,按照吉他谱上的数字在吉他的相应位置上按下对应的弦即可。

通过以上几部分的吉他谱,你就可以开始弹奏《最长的电影》了。如果你想要更多的挑战,还可以尝试学习其他乐器的谱曲技巧。

吉他谱是一种简单易懂的记谱法,通过吉他谱,吉他手们可以轻松地弹奏自己喜欢的歌曲。这篇文章为大家介绍了《最长的电影》的吉他谱(C调),希望能够帮助到各位乐器爱好者。只要你拿起吉他,按照吉他谱上的数字弹奏,你也可以成为一名炙手可热的吉他手。加油吧!

父亲筷子兄弟吉他谱

父亲筷子兄弟乐队是中国摇滚乐坛的一支传奇存在。他们的音乐风格独特,以热情洋溢的节奏、激情四溢的吉他演奏和深情款款的歌词而著称。要理解他们音乐背后的复杂性,我们需要向吉他谱中的音符和和弦寻找线索。

1. 吉他谱的解读:音符如诗歌般的文字

吉他谱是一种特殊的乐谱,用来指导吉他手演奏特定的音符和和弦。它由一系列数字和符号组成,通过指示各个音符的位置和演奏方式来传达音乐的信息。就像诗歌般的文字,吉他谱中的音符和和弦代表了父亲筷子兄弟乐队的音乐灵魂。

2. 节奏与和弦:给音乐注入活力

在父亲筷子兄弟乐队的音乐中,节奏和和弦起着重要的作用。节奏像乐曲的心跳,它的快慢、强弱和变化都决定了音乐的节奏感和动感。和弦则是音乐的基础,通过吉他弹奏出来,为音乐注入了丰富的和声和层次感。

3. 吉他演奏技巧:演绎出独特的风格

父亲筷子兄弟乐队的吉他演奏技巧非常高超,他们熟练运用了多种技巧来演绎出自己独特的音乐风格。颤音、滑音和扫弦等技巧为音乐增添了细腻和表现力。通过吉他谱中的指示,他们能够准确地表达出每一个音符所要表达的情感。

4. 歌词和情感的抒发与反思

父亲筷子兄弟乐队的歌词常常富有深情和反思,通过细腻的描述和比喻,他们将自己的情感与观点传达给听众。通过吉他谱中的歌词,我们可以更好地理解他们音乐中所表达的情感,以及他们对社会和人生的思考与反思。

父亲筷子兄弟乐队的音乐深受广大听众的喜爱,他们通过独特的吉他演奏和深情的歌词,表达了自己对生活的感悟和态度。通过吉他谱的解读,我们可以更深入地理解他们音乐背后的复杂性。吉他谱中的音符和和弦、节奏和技巧以及歌词和主题,都是构成他们音乐的重要元素,也是他们音乐中情感和思想的表达方式。让我们跟随吉他谱的指引,一同感受父亲筷子兄弟乐队的音乐魅力吧!

最长的电影吉他谱C调

一、史上最长的电影吉他谱C调

在音乐世界里,电影配乐一直扮演着重要的角色,它能够给电影带来独特的氛围和情感。而吉他作为一种流行乐器,在电影配乐中也有着不可忽视的地位。在众多的吉他谱中,最长的电影吉他谱C调是一部耗费巨大时间和精力的壮举。

二、揭秘电影吉他谱C调的制作过程

为了了解最长的电影吉他谱C调的制作过程,我们需要先对电影配乐有一定的了解。电影配乐分为原创音乐和改编音乐两种类型,而电影吉他谱C调通常属于改编音乐。制作电影吉他谱C调需要先获取原曲的音乐素材,然后通过分析和整理来实现改编。

三、电影吉他谱C调的创作挑战

电影吉他谱C调的制作并不简单,它需要克服一系列的创作挑战。吉他是一个拥有六根弦的乐器,而电影配乐通常包含多个乐器的和声与编曲。将原曲中的多种乐器的音符转化为吉他的音符,需要仔细考虑和安排。

四、电影吉他谱C调的技巧要点

制作电影吉他谱C调的过程中,有一些技巧要点需要特别注意。和弦的选择和变化。电影配乐中,和弦的进行常常有一些特殊的变化,如七和弦、转位和弹奏技巧等。在制作电影吉他谱C调时,要注意保留原曲的和弦变化。节奏的掌握。电影配乐中的节奏多样,有快速有慢速,有强弱有轻缓。在制作电影吉他谱C调时,要注意准确捕捉原曲的节奏感。

五、电影吉他谱C调的诠释与发展

电影吉他谱C调在诠释和发展方面也有着无限的可能。通过不同的演奏技巧和风格的运用,可以给电影配乐带来不同的味道和风格。电影吉他谱C调的发展也离不开吉他演奏者对音乐的理解和创新。

六、结语

最长的电影吉他谱C调在其制作过程中面临了各种各样的挑战与技巧要点。它不仅仅是一份吉他谱,更是对电影配乐的一次创新和诠释。通过电影吉他谱C调的制作和演奏,我们可以更深入地理解电影配乐的魅力,体验音乐与电影的完美结合。让我们共同期待更多精彩的电影吉他谱C调的问世,为电影配乐增添更多的色彩和情感。