自己的自己吉他谱(公路之歌吉他谱)

自己的自己吉他谱,也被称为公路之歌吉他谱,是一种用于演奏《公路之歌》这首歌曲的音乐谱表。它是由吉他音乐家创作和演奏的,具有独特的表现力和魅力。本文将通过定义、分类、举例和比较等方法来阐述自己的自己吉他谱的相关知识。

一、定义自己的自己吉他谱

自己的自己吉他谱是一种音乐谱表,用于演奏《公路之歌》这首歌曲。它通过指定吉他弦上的不同位置和弹奏方式,来呈现出原曲的音乐效果。自己的自己吉他谱通常使用标准吉他谱的符号和符号指示,以确保演奏者能够准确地理解和演奏该曲。

举例:

以下是自己的自己吉他谱的示例:

e|------------------------------------------------|

B|-3--5--7--7/8--7--5--3------------------------|

G|------------------------5--4--2--2/4--2--0----|

D|------------------------------------------------|

A|------------------------------------------------|

E|------------------------------------------------|

二、分类自己的自己吉他谱

根据乐谱的难易程度和风格,自己的自己吉他谱可以分为不同的分类。初级谱适合初学者,中级谱适合有一定吉他基础的演奏者,高级谱则需要更高水平的技巧和表现力。

举例:

1. 初级自己的自己吉他谱示例:

e|----------------|

B|-3--2--0-------|

G|----------2----|

D|-------------2-|

A|----------------|

E|----------------|

2. 中级自己的自己吉他谱示例:

e|--------------------------------------------------|

B|-3--5--7--7/8--7--5--3--------------------------|

G|------------------------5--4--2--2/4--2--0------|

D|--------------------------------------------------|

A|--------------------------------------------------|

E|--------------------------------------------------|

3. 高级自己的自己吉他谱示例:

e|--------------------------------------------------|

B|-12--17--12--10--8--7--8--10--12-----------------|

G|--------------------------------------------------|

D|--------------------------------------------------|

A|--------------------------------------------------|

E|--------------------------------------------------|

三、比较自己的自己吉他谱与其他吉他谱

自己的自己吉他谱与其他吉他谱相比,有其独特之处。自己的自己吉他谱注重表达演奏者个人情感和独特风格,强调演奏者的个性与创造力。而其他吉他谱更注重演奏曲目的原汁原味表达。自己的自己吉他谱在音乐上更富有变化和创新,可以通过扩展和改变吉他演奏技巧和音色来呈现不同的效果。

举例:

以下是自己的自己吉他谱与其他吉他谱的比较示例:

自己的自己吉他谱示例:

e|--------------------------------------------------|

B|-12--17--12--10--8--7--8--10--12-----------------|

G|--------------------------------------------------|

D|--------------------------------------------------|

A|--------------------------------------------------|

E|--------------------------------------------------|

其他吉他谱示例:

e|--------------------------------------------------|

B|-12--17--12--10--8--7--8--10--12-----------------|

G|--------------------------------------------------|

D|--------------------------------------------------|

A|--------------------------------------------------|

E|--------------------------------------------------|

自己的自己吉他谱(公路之歌吉他谱)是一种用于演奏《公路之歌》的音乐谱表,具有独特的表现力和魅力。通过定义、分类、举例和比较等方法,我们可以更好地理解和欣赏自己的自己吉他谱。希望通过本文的介绍,读者们能对自己的自己吉他谱有更深入的了解,并能够通过演奏来展现自己的音乐才华。

可不可以吉他谱

可不可以吉他谱是指为吉他演奏者提供乐曲指法和弹奏技巧的一种音乐资源。它可以帮助吉他初学者学习和演奏各种音乐作品,同时也是吉他爱好者互相交流和分享的重要工具。本文将通过定义、分类、举例和比较等方法,阐述可不可以吉他谱的相关知识,并介绍其在吉他行业中的重要性。

吉他作为一种流行乐器,吸引了无数爱好者和演奏者。吉他的学习和演奏过程也是一个不断积累和提升的过程。可不可以吉他谱作为一种重要的教学和学习资源,为吉他演奏者提供了极大的方便和帮助。下面将对可不可以吉他谱进行详细介绍。

1. 定义

可不可以吉他谱是一种以图形符号和数字表示的音乐谱表。它通过特定的符号和数字来指示音符、弦位和指法等信息,使得演奏者能够准确地学习和演奏各种音乐作品。

2. 分类

可不可以吉他谱可以根据不同的音乐风格和演奏技巧进行分类。常见的分类方式包括:经典吉他谱、流行吉他谱、指弹吉他谱和和弦吉他谱等。不同的分类方式适用于不同的演奏风格和技巧需求,满足了吉他演奏者的不同学习和演奏需求。

3. 举例

为了更好地说明可不可以吉他谱的应用价值,以下举例介绍了几个常见的吉他谱类型。

a. 经典吉他谱

经典吉他谱主要用于演奏古典音乐作品,如巴赫的《布格斯变奏曲》和贝多芬的《命运交响曲》等。这种谱表详细地标示了每个音符和指法,使得演奏时更加准确和精确。

b. 流行吉他谱

流行吉他谱主要用于演奏流行音乐作品,如披头士的《Yesterday》和泰勒·斯威夫特的《Love Story》等。这种谱表通常采用简化的符号和和弦提示,使得初学者能快速学习和演奏。

c. 指弹吉他谱

指弹吉他谱主要用于演奏指弹技法的音乐作品,如法兰克·赛尔多的《泪之河》和汤普金斯的《飞翔的雨滴》等。这种谱表通过指法符号和数字指示特定的演奏技巧,帮助演奏者掌握指弹技法。

d. 和弦吉他谱

和弦吉他谱主要用于伴奏和弹唱,常见于流行歌曲和民谣曲目。这种谱表通过和弦符号和歌词来指示演奏者的和弦变化和节奏,使得演奏者能够轻松地伴奏和弹唱。

4. 比较

相比其他学习方式,可不可以吉他谱具有以下优势:

a. 易学易用:吉他谱通过简单的符号和数字表示,使得初学者能够迅速上手,并逐步提升演奏水平。

b. 多样性和广泛性:可不可以吉他谱涵盖了各类音乐作品和演奏技巧,满足了不同演奏者的需求。

c. 交流和分享:吉他谱作为一种标准化的音乐资源,方便了吉他演奏者之间的交流和分享,促进了吉他技巧的传承和发展。

可不可以吉他谱在吉他行业中起着举足轻重的作用。它通过定义、分类、举例和比较等方法,帮助读者全面了解吉他谱的相关知识,并展示了其在吉他学习和演奏中的重要性。对于吉他初学者和爱好者来说,掌握和运用吉他谱是提升演奏水平的重要途径之一。我们应该充分利用可不可以吉他谱这一资源,并不断学习和提升自己的吉他技巧。

公路之歌吉他谱

公路之歌吉他谱是指一系列用于演奏《公路之歌》这首歌曲的吉他谱。作为一首广为人知的摇滚经典曲目,公路之歌吉他谱在吉他学习者和演奏者群体中非常受欢迎。本文将从定义、分类、举例和比较等方面全面介绍公路之歌吉他谱的相关知识。

定义:

公路之歌吉他谱是一种指导吉他演奏者学习和演奏《公路之歌》这首歌曲的音乐记谱系统。它以图形的方式呈现了乐曲中的音符、和弦、节奏、节拍等要素,为吉他演奏者提供了详细的演奏指导。

分类:

公路之歌吉他谱可以根据难度级别、兼容性和版本等因素进行分类。

根据难度级别,公路之歌吉他谱可以分为初级、中级和高级三个级别。初级吉他谱适合刚开始学习吉他的新手演奏,其中的和弦和音符相对简单易学。中级吉他谱要求演奏者具备一定的基础技巧和音乐理论知识,其中的音符和和弦的组合较为复杂。高级吉他谱则需要演奏者具备较高的技巧水平,其中的音符、和弦和节奏都相对较难。

根据兼容性,公路之歌吉他谱可以分为原版吉他谱和简化吉他谱两种。原版吉他谱是根据原曲编写的,准确地展现了原曲的音乐要素。而简化吉他谱为了方便吉他学习者,对原版吉他谱进行了一些简化和改编,使其更易于学习和演奏。

根据版本,公路之歌吉他谱可以分为指弹版本和弹唱版本两种。指弹版本主要注重吉他演奏技巧和和弦的运用,适合那些喜欢用吉他独奏的演奏者。而弹唱版本则更注重吉他和声伴奏和歌词的演绎,适合那些喜欢与歌曲一同演唱的演奏者。

举例:

以下是一段公路之歌吉他谱的示例:

e|----------------------------------|

B|----8-7-5-7-8-7------5-7-8---------|

G|----------------7-6-7---------7-----|

D|-5-------------------------------9-|

A|----------------------------------|

E|----------------------------------|

比较:

公路之歌吉他谱与其他吉他谱相比,在演奏者群体中有着独特的受欢迎程度和影响力。与其他歌曲的吉他谱相比,公路之歌吉他谱因其经典的旋律和丰富的和弦变化而备受推崇。公路之歌作为一首广为人知的曲目,其吉他谱的编写和改编也很丰富,演奏者可以根据自己的技巧水平和喜好选择不同版本的吉他谱进行学习和演奏。

公路之歌吉他谱是一种广受欢迎的吉他学习和演奏资源。通过定义、分类、举例和比较等方法,本文对公路之歌吉他谱的相关知识进行了系统而清晰的阐述。吉他学习者和演奏者可以根据自己的需求和水平选择适合自己的公路之歌吉他谱进行学习和演奏。